ISO-10303-21;
HEADER;
FILE_DESCRIPTION (( 'STEP AP203' ),
    '1' );
FILE_NAME ('BK7-RNDF-50-1.5.STEP',
    '2020-12-22T01:29:08',
    ( '' ),
    ( '' ),
    'SwSTEP 2.0',
    'SolidWorks 2020',
    '' );
FILE_SCHEMA (( 'CONFIG_CONTROL_DESIGN' ));
ENDSEC;

DATA;
#1 = EDGE_CURVE ( 'NONE', #60, #80, #97, .T. ) ;
#2 = PLANE ( 'NONE',  #169 ) ;
#3 = CARTESIAN_POINT ( 'NONE',  ( 0.000000000000000000, 3.061616997868383043E-15, -25.00000000000000000 ) ) ;
#4 = DIRECTION ( 'NONE',  ( -1.000000000000000000, -0.000000000000000000, -0.000000000000000000 ) ) ;
#5 = LOCAL_TIME ( 9, 29, 8.000000000000000000, #170 ) ;
#6 = DIRECTION ( 'NONE',  ( 0.000000000000000000, 0.000000000000000000, -1.000000000000000000 ) ) ;
#7 = CARTESIAN_POINT ( 'NONE',  ( 1.999999999999997113, 0.000000000000000000, 0.000000000000000000 ) ) ;
#8 = DIRECTION ( 'NONE',  ( 0.000000000000000000, 0.000000000000000000, 1.000000000000000000 ) ) ;
#9 = EDGE_LOOP ( 'NONE', ( #27, #49 ) ) ;
#10 = DATE_AND_TIME ( #127, #15 ) ;
#11 = VERTEX_POINT ( 'NONE', #96 ) ;
#12 = COORDINATED_UNIVERSAL_TIME_OFFSET ( 8, 0, .AHEAD. ) ;
#13 = CC_DESIGN_APPROVAL ( #77, ( #74 ) ) ;
#14 = VECTOR ( 'NONE', #131, 1000.000000000000000 ) ;
#15 = LOCAL_TIME ( 9, 29, 8.000000000000000000, #12 ) ;
#16 = FACE_OUTER_BOUND ( 'NONE', #173, .T. ) ;
#17 = APPROVAL ( #22, 'UNSPECIFIED' ) ;
#18 = CC_DESIGN_PERSON_AND_ORGANIZATION_ASSIGNMENT ( #28, #139, ( #165 ) ) ;
#19 = CARTESIAN_POINT ( 'NONE',  ( 0.000000000000000000, 0.000000000000000000, 0.000000000000000000 ) ) ;
#20 =( NAMED_UNIT ( * ) SI_UNIT ( $, .STERADIAN. ) SOLID_ANGLE_UNIT ( ) );
#21 = CC_DESIGN_APPROVAL ( #17, ( #103 ) ) ;
#22 = APPROVAL_STATUS ( 'not_yet_approved' ) ;
#23 = CALENDAR_DATE ( 2020, 22, 12 ) ;
#24 = EDGE_CURVE ( 'NONE', #98, #11, #115, .T. ) ;
#25 = ORIENTED_EDGE ( 'NONE', *, *, #95, .T. ) ;
#26 = DATE_AND_TIME ( #157, #118 ) ;
#27 = ORIENTED_EDGE ( 'NONE', *, *, #1, .F. ) ;
#28 = PERSON_AND_ORGANIZATION ( #175, #85 ) ;
#29 = AXIS2_PLACEMENT_3D ( 'NONE', #156, #39, #82 ) ;
#30 = ADVANCED_FACE ( 'NONE', ( #146 ), #2, .F. ) ;
#31 = LOCAL_TIME ( 9, 29, 8.000000000000000000, #48 ) ;
#32 = CYLINDRICAL_SURFACE ( 'NONE', #150, 25.00000000000000000 ) ;
#33 = CARTESIAN_POINT ( 'NONE',  ( -2.694222958124177204E-15, 3.061616997868383043E-15, -25.00000000000000000 ) ) ;
#34 = APPROVAL_ROLE ( '' ) ;
#35 = CALENDAR_DATE ( 2020, 22, 12 ) ;
#36 = APPROVAL_DATE_TIME ( #166, #17 ) ;
#37 = ORIENTED_EDGE ( 'NONE', *, *, #95, .F. ) ;
#38 = ADVANCED_FACE ( 'NONE', ( #75 ), #32, .T. ) ;
#39 = DIRECTION ( 'NONE',  ( -1.000000000000000000, -0.000000000000000000, -0.000000000000000000 ) ) ;
#40 = PERSON_AND_ORGANIZATION_ROLE ( 'creator' ) ;
#41 = APPROVAL_PERSON_ORGANIZATION ( #153, #77, #34 ) ;
#42 = CIRCLE ( 'NONE', #117, 25.00000000000000000 ) ;
#43 = CARTESIAN_POINT ( 'NONE',  ( -1.347111479062088602E-15, 25.00000000000000000, 0.000000000000000000 ) ) ;
#44 = AXIS2_PLACEMENT_3D ( 'NONE', #43, #90, #6 ) ;
#45 = DIRECTION ( 'NONE',  ( 0.000000000000000000, 0.000000000000000000, 1.000000000000000000 ) ) ;
#46 = DIRECTION ( 'NONE',  ( -1.000000000000000000, -0.000000000000000000, -0.000000000000000000 ) ) ;
#47 = APPLICATION_PROTOCOL_DEFINITION ( 'international standard', 'config_control_design', 1994, #87 ) ;
#48 = COORDINATED_UNIVERSAL_TIME_OFFSET ( 8, 0, .AHEAD. ) ;
#49 = ORIENTED_EDGE ( 'NONE', *, *, #162, .F. ) ;
#50 = AXIS2_PLACEMENT_3D ( 'NONE', #154, #56, #45 ) ;
#51 = APPROVAL_ROLE ( '' ) ;
#52 = CC_DESIGN_PERSON_AND_ORGANIZATION_ASSIGNMENT ( #99, #40, ( #74 ) ) ;
#53 = DIRECTION ( 'NONE',  ( 0.000000000000000000, 0.000000000000000000, 1.000000000000000000 ) ) ;
#54 = CARTESIAN_POINT ( 'NONE',  ( 1.999999999999997113, 0.000000000000000000, 25.00000000000000000 ) ) ;
#55 = DIRECTION ( 'NONE',  ( -1.000000000000000000, -0.000000000000000000, -0.000000000000000000 ) ) ;
#56 = DIRECTION ( 'NONE',  ( -1.000000000000000000, -0.000000000000000000, -0.000000000000000000 ) ) ;
#57 = LINE ( 'NONE', #3, #73 ) ;
#58 = PERSON_AND_ORGANIZATION ( #175, #85 ) ;
#59 = CC_DESIGN_DATE_AND_TIME_ASSIGNMENT ( #174, #141, ( #165 ) ) ;
#60 = VERTEX_POINT ( 'NONE', #54 ) ;
#61 = APPROVAL_DATE_TIME ( #26, #77 ) ;
#62 = ORIENTED_EDGE ( 'NONE', *, *, #147, .T. ) ;
#63 = CC_DESIGN_SECURITY_CLASSIFICATION ( #165, ( #74 ) ) ;
#64 = CARTESIAN_POINT ( 'NONE',  ( 1.999999999999998224, 25.00000000000000000, 0.000000000000000000 ) ) ;
#65 = DIRECTION ( 'NONE',  ( -1.000000000000000000, 0.000000000000000000, -0.000000000000000000 ) ) ;
#66 = APPROVAL_STATUS ( 'not_yet_approved' ) ;
#67 = PERSON_AND_ORGANIZATION_ROLE ( 'creator' ) ;
#68 = CC_DESIGN_APPROVAL ( #160, ( #165 ) ) ;
#69 = APPLICATION_CONTEXT ( 'configuration controlled 3d designs of mechanical parts and assemblies' ) ;
#70 = CALENDAR_DATE ( 2020, 22, 12 ) ;
#71 = ORIENTED_EDGE ( 'NONE', *, *, #1, .T. ) ;
#72 = DESIGN_CONTEXT ( 'detailed design', #87, 'design' ) ;
#73 = VECTOR ( 'NONE', #149, 1000.000000000000000 ) ;
#74 = PRODUCT_DEFINITION_FORMATION_WITH_SPECIFIED_SOURCE ( 'ANY', '', #155, .NOT_KNOWN. ) ;
#75 = FACE_OUTER_BOUND ( 'NONE', #124, .T. ) ;
#76 = CARTESIAN_POINT ( 'NONE',  ( 1.999999999999997113, 3.061616997868383043E-15, -25.00000000000000000 ) ) ;
#77 = APPROVAL ( #66, 'UNSPECIFIED' ) ;
#78 = CARTESIAN_POINT ( 'NONE',  ( -2.694222958124177204E-15, 0.000000000000000000, 0.000000000000000000 ) ) ;
#79 = DATE_AND_TIME ( #35, #31 ) ;
#80 = VERTEX_POINT ( 'NONE', #76 ) ;
#81 = SECURITY_CLASSIFICATION_LEVEL ( 'unclassified' ) ;
#82 = DIRECTION ( 'NONE',  ( 0.000000000000000000, 0.000000000000000000, 1.000000000000000000 ) ) ;
#83 = PERSON_AND_ORGANIZATION ( #175, #85 ) ;
#84 = APPROVAL_DATE_TIME ( #10, #160 ) ;
#85 = ORGANIZATION ( 'UNSPECIFIED', 'UNSPECIFIED', '' ) ;
#86 = CC_DESIGN_PERSON_AND_ORGANIZATION_ASSIGNMENT ( #83, #112, ( #74 ) ) ;
#87 = APPLICATION_CONTEXT ( 'configuration controlled 3d designs of mechanical parts and assemblies' ) ;
#88 = AXIS2_PLACEMENT_3D ( 'NONE', #7, #55, #120 ) ;
#89 = LOCAL_TIME ( 9, 29, 8.000000000000000000, #152 ) ;
#90 = DIRECTION ( 'NONE',  ( 1.000000000000000000, 0.000000000000000000, 0.000000000000000000 ) ) ;
#91 = CC_DESIGN_PERSON_AND_ORGANIZATION_ASSIGNMENT ( #58, #164, ( #155 ) ) ;
#92 = DIRECTION ( 'NONE',  ( 0.000000000000000000, 0.000000000000000000, 1.000000000000000000 ) ) ;
#93 = PERSON_AND_ORGANIZATION ( #175, #85 ) ;
#94 = DATE_TIME_ROLE ( 'creation_date' ) ;
#95 = EDGE_CURVE ( 'NONE', #60, #11, #133, .T. ) ;
#96 = CARTESIAN_POINT ( 'NONE',  ( -2.694222958124177204E-15, 0.000000000000000000, 25.00000000000000000 ) ) ;
#97 = CIRCLE ( 'NONE', #29, 25.00000000000000000 ) ;
#98 = VERTEX_POINT ( 'NONE', #33 ) ;
#99 = PERSON_AND_ORGANIZATION ( #175, #85 ) ;
#100 = PRODUCT_RELATED_PRODUCT_CATEGORY ( 'detail', '', ( #155 ) ) ;
#101 = SHAPE_DEFINITION_REPRESENTATION ( #125, #159 ) ;
#102 = FACE_OUTER_BOUND ( 'NONE', #140, .T. ) ;
#103 = PRODUCT_DEFINITION ( 'UNKNOWN', '', #74, #72 ) ;
#104 = CARTESIAN_POINT ( 'NONE',  ( 0.000000000000000000, 0.000000000000000000, 25.00000000000000000 ) ) ;
#105 =( NAMED_UNIT ( * ) PLANE_ANGLE_UNIT ( ) SI_UNIT ( $, .RADIAN. ) );
#106 = DIRECTION ( 'NONE',  ( 0.000000000000000000, 0.000000000000000000, 1.000000000000000000 ) ) ;
#107 = MECHANICAL_CONTEXT ( 'NONE', #69, 'mechanical' ) ;
#108 = CARTESIAN_POINT ( 'NONE',  ( 0.000000000000000000, 0.000000000000000000, 0.000000000000000000 ) ) ;
#109 = CC_DESIGN_PERSON_AND_ORGANIZATION_ASSIGNMENT ( #137, #67, ( #103 ) ) ;
#110 = ORIENTED_EDGE ( 'NONE', *, *, #147, .F. ) ;
#111 = ORIENTED_EDGE ( 'NONE', *, *, #162, .T. ) ;
#112 = PERSON_AND_ORGANIZATION_ROLE ( 'design_supplier' ) ;
#113 = MANIFOLD_SOLID_BREP ( 'Ðý×', #130 ) ;
#114 = DIRECTION ( 'NONE',  ( -0.000000000000000000, 0.000000000000000000, 1.000000000000000000 ) ) ;
#115 = CIRCLE ( 'NONE', #50, 25.00000000000000000 ) ;
#116 = DIRECTION ( 'NONE',  ( -1.000000000000000000, -0.000000000000000000, -0.000000000000000000 ) ) ;
#117 = AXIS2_PLACEMENT_3D ( 'NONE', #78, #46, #106 ) ;
#118 = LOCAL_TIME ( 9, 29, 8.000000000000000000, #119 ) ;
#119 = COORDINATED_UNIVERSAL_TIME_OFFSET ( 8, 0, .AHEAD. ) ;
#120 = DIRECTION ( 'NONE',  ( 0.000000000000000000, 0.000000000000000000, 1.000000000000000000 ) ) ;
#121 = APPLICATION_PROTOCOL_DEFINITION ( 'international standard', 'config_control_design', 1994, #69 ) ;
#122 = DIRECTION ( 'NONE',  ( 1.000000000000000000, 0.000000000000000000, 0.000000000000000000 ) ) ;
#123 = ADVANCED_FACE ( 'NONE', ( #16 ), #163, .T. ) ;
#124 = EDGE_LOOP ( 'NONE', ( #110, #111, #25, #128 ) ) ;
#125 = PRODUCT_DEFINITION_SHAPE ( 'NONE', 'NONE',  #103 ) ;
#126 = UNCERTAINTY_MEASURE_WITH_UNIT (LENGTH_MEASURE( 1.000000000000000082E-05 ), #135, 'distance_accuracy_value', 'NONE');
#127 = CALENDAR_DATE ( 2020, 22, 12 ) ;
#128 = ORIENTED_EDGE ( 'NONE', *, *, #24, .F. ) ;
#129 = PERSON_AND_ORGANIZATION ( #175, #85 ) ;
#130 = CLOSED_SHELL ( 'NONE', ( #123, #38, #30, #132 ) ) ;
#131 = DIRECTION ( 'NONE',  ( -1.000000000000000000, -0.000000000000000000, -0.000000000000000000 ) ) ;
#132 = ADVANCED_FACE ( 'NONE', ( #102 ), #161, .F. ) ;
#133 = LINE ( 'NONE', #104, #14 ) ;
#134 = APPROVAL_PERSON_ORGANIZATION ( #93, #17, #136 ) ;
#135 =( LENGTH_UNIT ( ) NAMED_UNIT ( * ) SI_UNIT ( .MILLI., .METRE. ) );
#136 = APPROVAL_ROLE ( '' ) ;
#137 = PERSON_AND_ORGANIZATION ( #175, #85 ) ;
#138 = ORIENTED_EDGE ( 'NONE', *, *, #24, .T. ) ;
#139 = PERSON_AND_ORGANIZATION_ROLE ( 'classification_officer' ) ;
#140 = EDGE_LOOP ( 'NONE', ( #168, #138 ) ) ;
#141 = DATE_TIME_ROLE ( 'classification_date' ) ;
#142 = EDGE_CURVE ( 'NONE', #11, #98, #42, .T. ) ;
#143 = CC_DESIGN_DATE_AND_TIME_ASSIGNMENT ( #79, #94, ( #103 ) ) ;
#144 = AXIS2_PLACEMENT_3D ( 'NONE', #108, #8, #122 ) ;
#145 = AXIS2_PLACEMENT_3D ( 'NONE', #19, #116, #53 ) ;
#146 = FACE_OUTER_BOUND ( 'NONE', #9, .T. ) ;
#147 = EDGE_CURVE ( 'NONE', #80, #98, #57, .T. ) ;
#148 = CARTESIAN_POINT ( 'NONE',  ( 0.000000000000000000, 0.000000000000000000, 0.000000000000000000 ) ) ;
#149 = DIRECTION ( 'NONE',  ( -1.000000000000000000, -0.000000000000000000, -0.000000000000000000 ) ) ;
#150 = AXIS2_PLACEMENT_3D ( 'NONE', #148, #4, #92 ) ;
#151 = APPROVAL_PERSON_ORGANIZATION ( #129, #160, #51 ) ;
#152 = COORDINATED_UNIVERSAL_TIME_OFFSET ( 8, 0, .AHEAD. ) ;
#153 = PERSON_AND_ORGANIZATION ( #175, #85 ) ;
#154 = CARTESIAN_POINT ( 'NONE',  ( -2.694222958124177204E-15, 0.000000000000000000, 0.000000000000000000 ) ) ;
#155 = PRODUCT ( 'BK7-RNDF-50-1.5', 'BK7-RNDF-50-1.5', '', ( #107 ) ) ;
#156 = CARTESIAN_POINT ( 'NONE',  ( 1.999999999999997113, 0.000000000000000000, 0.000000000000000000 ) ) ;
#157 = CALENDAR_DATE ( 2020, 22, 12 ) ;
#158 = APPROVAL_STATUS ( 'not_yet_approved' ) ;
#159 = ADVANCED_BREP_SHAPE_REPRESENTATION ( 'BK7-RNDF-50-1.5', ( #113, #144 ), #172 ) ;
#160 = APPROVAL ( #158, 'UNSPECIFIED' ) ;
#161 = PLANE ( 'NONE',  #44 ) ;
#162 = EDGE_CURVE ( 'NONE', #80, #60, #171, .T. ) ;
#163 = CYLINDRICAL_SURFACE ( 'NONE', #145, 25.00000000000000000 ) ;
#164 = PERSON_AND_ORGANIZATION_ROLE ( 'design_owner' ) ;
#165 = SECURITY_CLASSIFICATION ( '', '', #81 ) ;
#166 = DATE_AND_TIME ( #23, #89 ) ;
#167 = ORIENTED_EDGE ( 'NONE', *, *, #142, .F. ) ;
#168 = ORIENTED_EDGE ( 'NONE', *, *, #142, .T. ) ;
#169 = AXIS2_PLACEMENT_3D ( 'NONE', #64, #65, #114 ) ;
#170 = COORDINATED_UNIVERSAL_TIME_OFFSET ( 8, 0, .AHEAD. ) ;
#171 = CIRCLE ( 'NONE', #88, 25.00000000000000000 ) ;
#172 =( GEOMETRIC_REPRESENTATION_CONTEXT ( 3 ) GLOBAL_UNCERTAINTY_ASSIGNED_CONTEXT ( ( #126 ) ) GLOBAL_UNIT_ASSIGNED_CONTEXT ( ( #135, #105, #20 ) ) REPRESENTATION_CONTEXT ( 'NONE', 'WORKASPACE' ) );
#173 = EDGE_LOOP ( 'NONE', ( #71, #62, #167, #37 ) ) ;
#174 = DATE_AND_TIME ( #70, #5 ) ;
#175 = PERSON ( 'UNSPECIFIED', 'UNSPECIFIED', 'UNSPECIFIED', ('UNSPECIFIED'), ('UNSPECIFIED'), ('UNSPECIFIED') ) ;
ENDSEC;
END-ISO-10303-21;
